  0
SECTION
  2
HEADER
  9
$ACADVER
  1
AC1015
  9
$ACADMAINTVER
 70
     6
  9
$DWGCODEPAGE
  3
ANSI_1254
  9
$INSBASE
 10
0.0
 20
0.0
 30
0.0
  9
$EXTMIN
 10
0.0
 20
0.0
 30
0.0
  9
$EXTMAX
 10
279.4
 20
215.9
 30
0.0
  9
$LIMMIN
 10
0.0
 20
0.0
  9
$LIMMAX
 10
279.4
 20
215.9
  9
$ORTHOMODE
 70
     0
  9
$REGENMODE
 70
     1
  9
$FILLMODE
 70
     1
  9
$QTEXTMODE
 70
     0
  9
$MIRRTEXT
 70
     1
  9
$LTSCALE
 40
1.0
  9
$ATTMODE
 70
     1
  9
$TEXTSIZE
 40
3.5
  9
$TRACEWID
 40
1.0
  9
$TEXTSTYLE
  7
Standard
  9
$CLAYER
  8
0
  9
$CELTYPE
  6
ByLayer
  9
$CECOLOR
 62
   256
  9
$CELTSCALE
 40
1.0
  9
$DISPSILH
 70
     0
  9
$DIMSCALE
 40
1.0
  9
$DIMASZ
 40
3.5
  9
$DIMEXO
 40
1.0
  9
$DIMDLI
 40
3.75
  9
$DIMRND
 40
0.0
  9
$DIMDLE
 40
0.0
  9
$DIMEXE
 40
1.0
  9
$DIMTP
 40
0.0
  9
$DIMTM
 40
0.0
  9
$DIMTXT
 40
3.5
  9
$DIMCEN
 40
2.5
  9
$DIMTSZ
 40
0.0
  9
$DIMTOL
 70
     0
  9
$DIMLIM
 70
     0
  9
$DIMTIH
 70
     1
  9
$DIMTOH
 70
     1
  9
$DIMSE1
 70
     0
  9
$DIMSE2
 70
     0
  9
$DIMTAD
 70
     1
  9
$DIMZIN
 70
     0
  9
$DIMBLK
  1

  9
$DIMASO
 70
     1
  9
$DIMSHO
 70
     1
  9
$DIMPOST
  1

  9
$DIMAPOST
  1

  9
$DIMALT
 70
     0
  9
$DIMALTD
 70
     3
  9
$DIMALTF
 40
0.0393700787
  9
$DIMLFAC
 40
1.0
  9
$DIMTOFL
 70
     1
  9
$DIMTVP
 40
0.0
  9
$DIMTIX
 70
     0
  9
$DIMSOXD
 70
     0
  9
$DIMSAH
 70
     0
  9
$DIMBLK1
  1

  9
$DIMBLK2
  1

  9
$DIMSTYLE
  2
ISO-25
  9
$DIMCLRD
 70
     0
  9
$DIMCLRE
 70
     0
  9
$DIMCLRT
 70
     0
  9
$DIMTFAC
 40
1.0
  9
$DIMGAP
 40
1.524
  9
$DIMJUST
 70
     0
  9
$DIMSD1
 70
     0
  9
$DIMSD2
 70
     0
  9
$DIMTOLJ
 70
     0
  9
$DIMTZIN
 70
     0
  9
$DIMALTZ
 70
     0
  9
$DIMALTTZ
 70
     0
  9
$DIMUPT
 70
     0
  9
$DIMDEC
 70
     2
  9
$DIMTDEC
 70
     2
  9
$DIMALTU
 70
     2
  9
$DIMALTTD
 70
     3
  9
$DIMTXSTY
  7
Standard
  9
$DIMAUNIT
 70
     0
  9
$DIMADEC
 70
     2
  9
$DIMALTRND
 40
0.0
  9
$DIMAZIN
 70
     0
  9
$DIMDSEP
 70
    44
  9
$DIMATFIT
 70
     3
  9
$DIMFRAC
 70
     0
  9
$DIMLDRBLK
  1

  9
$DIMLUNIT
 70
     2
  9
$DIMLWD
 70
    -2
  9
$DIMLWE
 70
    -2
  9
$DIMTMOVE
 70
     0
  9
$LUNITS
 70
     2
  9
$LUPREC
 70
     2
  9
$SKETCHINC
 40
1.0
  9
$FILLETRAD
 40
10.0
  9
$AUNITS
 70
     0
  9
$AUPREC
 70
     2
  9
$MENU
  1
.
  9
$ELEVATION
 40
0.0
  9
$PELEVATION
 40
0.0
  9
$THICKNESS
 40
0.0
  9
$LIMCHECK
 70
     0
  9
$CHAMFERA
 40
0.0
  9
$CHAMFERB
 40
0.0
  9
$CHAMFERC
 40
0.0
  9
$CHAMFERD
 40
0.0
  9
$SKPOLY
 70
     0
  9
$TDCREATE
 40
2458985.682697801
  9
$TDUCREATE
 40
2458985.557697801
  9
$TDUPDATE
 40
2458985.682698137
  9
$TDUUPDATE
 40
2458985.557698137
  9
$TDINDWG
 40
0.0000000116
  9
$TDUSRTIMER
 40
0.0000000116
  9
$USRTIMER
 70
     1
  9
$ANGBASE
 50
0.0
  9
$ANGDIR
 70
     0
  9
$PDMODE
 70
     0
  9
$PDSIZE
 40
-1.0
  9
$PLINEWID
 40
0.0
  9
$SPLFRAME
 70
     0
  9
$SPLINETYPE
 70
     6
  9
$SPLINESEGS
 70
     8
  9
$HANDSEED
  5
CB
  9
$SURFTAB1
 70
     6
  9
$SURFTAB2
 70
     6
  9
$SURFTYPE
 70
     6
  9
$SURFU
 70
     6
  9
$SURFV
 70
     6
  9
$UCSBASE
  2

  9
$UCSNAME
  2

  9
$UCSORG
 10
0.0
 20
0.0
 30
0.0
  9
$UCSXDIR
 10
1.0
 20
0.0
 30
0.0
  9
$UCSYDIR
 10
0.0
 20
1.0
 30
0.0
  9
$UCSORTHOREF
  2

  9
$UCSORTHOVIEW
 70
     0
  9
$UCSORGTOP
 10
0.0
 20
0.0
 30
0.0
  9
$UCSORGBOTTOM
 10
0.0
 20
0.0
 30
0.0
  9
$UCSORGLEFT
 10
0.0
 20
0.0
 30
0.0
  9
$UCSORGRIGHT
 10
0.0
 20
0.0
 30
0.0
  9
$UCSORGFRONT
 10
0.0
 20
0.0
 30
0.0
  9
$UCSORGBACK
 10
0.0
 20
0.0
 30
0.0
  9
$PUCSBASE
  2

  9
$PUCSNAME
  2

  9
$PUCSORG
 10
0.0
 20
0.0
 30
0.0
  9
$PUCSXDIR
 10
1.0
 20
0.0
 30
0.0
  9
$PUCSYDIR
 10
0.0
 20
1.0
 30
0.0
  9
$PUCSORTHOREF
  2

  9
$PUCSORTHOVIEW
 70
     0
  9
$PUCSORGTOP
 10
0.0
 20
0.0
 30
0.0
  9
$PUCSORGBOTTOM
 10
0.0
 20
0.0
 30
0.0
  9
$PUCSORGLEFT
 10
0.0
 20
0.0
 30
0.0
  9
$PUCSORGRIGHT
 10
0.0
 20
0.0
 30
0.0
  9
$PUCSORGFRONT
 10
0.0
 20
0.0
 30
0.0
  9
$PUCSORGBACK
 10
0.0
 20
0.0
 30
0.0
  9
$USERI1
 70
     0
  9
$USERI2
 70
     0
  9
$USERI3
 70
     0
  9
$USERI4
 70
     0
  9
$USERI5
 70
     0
  9
$USERR1
 40
0.0
  9
$USERR2
 40
0.0
  9
$USERR3
 40
0.0
  9
$USERR4
 40
0.0
  9
$USERR5
 40
0.0
  9
$WORLDVIEW
 70
     1
  9
$SHADEDGE
 70
     3
  9
$SHADEDIF
 70
    70
  9
$TILEMODE
 70
     1
  9
$MAXACTVP
 70
    64
  9
$PINSBASE
 10
0.0
 20
0.0
 30
0.0
  9
$PLIMCHECK
 70
     0
  9
$PEXTMIN
 10
1.0000000000E+20
 20
1.0000000000E+20
 30
1.0000000000E+20
  9
$PEXTMAX
 10
-1.0000000000E+20
 20
-1.0000000000E+20
 30
-1.0000000000E+20
  9
$PLIMMIN
 10
0.0
 20
0.0
  9
$PLIMMAX
 10
420.0
 20
297.0
  9
$UNITMODE
 70
     0
  9
$VISRETAIN
 70
     1
  9
$PLINEGEN
 70
     0
  9
$PSLTSCALE
 70
     1
  9
$TREEDEPTH
 70
  3020
  9
$CMLSTYLE
  2
Standard
  9
$CMLJUST
 70
     0
  9
$CMLSCALE
 40
20.0
  9
$PROXYGRAPHICS
 70
     1
  9
$MEASUREMENT
 70
     1
  9
$CELWEIGHT
370
    -1
  9
$ENDCAPS
280
     0
  9
$JOINSTYLE
280
     0
  9
$LWDISPLAY
290
     1
  9
$INSUNITS
 70
     4
  9
$HYPERLINKBASE
  1

  9
$STYLESHEET
  1

  9
$XEDIT
290
     1
  9
$CEPSNTYPE
380
     0
  9
$PSTYLEMODE
290
     1
  9
$FINGERPRINTGUID
  2
{48deb65c-fb2e-4dac-bf2e-a2121118117c}
  9
$VERSIONGUID
  2
{FAEB1C32-E019-11D5-929B-00C0DF256EC4}
  9
$EXTNAMES
290
     1
  9
$PSVPSCALE
 40
0.0
  9
$OLESTARTUP
290
     0
  0
ENDSEC
  0
SECTION
  2
CLASSES
  0
CLASS
  1
ACDBDICTIONARYWDFLT
  2
AcDbDictionaryWithDefault
  3
ObjectDBX Classes
 90
        0
280
     0
281
     0
  0
CLASS
  1
VISUALSTYLE
  2
AcDbVisualStyle
  3
ObjectDBX Classes
 90
     4095
280
     0
281
     0
  0
CLASS
  1
MATERIAL
  2
AcDbMaterial
  3
ObjectDBX Classes
 90
     1153
280
     0
281
     0
  0
CLASS
  1
SCALE
  2
AcDbScale
  3
ObjectDBX Classes
 90
     1153
280
     0
281
     0
  0
CLASS
  1
TABLESTYLE
  2
AcDbTableStyle
  3
ObjectDBX Classes
 90
     4095
280
     0
281
     0
  0
CLASS
  1
MLEADERSTYLE
  2
AcDbMLeaderStyle
  3
ACDB_MLEADERSTYLE_CLASS
 90
     4095
280
     0
281
     0
  0
CLASS
  1
SUN
  2
AcDbSun
  3
SCENEOE
 90
     1153
280
     0
281
     0
  0
CLASS
  1
ACDBPLACEHOLDER
  2
AcDbPlaceHolder
  3
ObjectDBX Classes
 90
        0
280
     0
281
     0
  0
CLASS
  1
LAYOUT
  2
AcDbLayout
  3
ObjectDBX Classes
 90
        0
280
     0
281
     0
  0
ENDSEC
  0
SECTION
  2
TABLES
  0
TABLE
  2
VPORT
  5
8
330
0
100
AcDbSymbolTable
 70
     1
  0
VPORT
  5
29
330
8
100
AcDbSymbolTableRecord
100
AcDbViewportTableRecord
  2
*Active
 70
     0
 10
0.0
 20
0.0
 11
1.0
 21
1.0
 12
139.7
 22
107.95
 13
0.0
 23
0.0
 14
10.0
 24
10.0
 15
10.0
 25
10.0
 16
0.0
 26
0.0
 36
1.0
 17
0.0
 27
0.0
 37
0.0
 40
215.9
 41
1.2941176471
 42
50.0
 43
0.0
 44
0.0
 50
0.0
 51
0.0
 71
     0
 72
  2000
 73
     1
 74
     3
 75
     0
 76
     0
 77
     0
 78
     0
281
     0
 65
     1
110
0.0
120
0.0
130
0.0
111
1.0
121
0.0
131
0.0
112
0.0
122
1.0
132
0.0
 79
     0
146
0.0
  0
ENDTAB
  0
TABLE
  2
LTYPE
  5
5
330
0
100
AcDbSymbolTable
 70
     6
  0
LTYPE
  5
14
330
5
100
AcDbSymbolTableRecord
100
AcDbLinetypeTableRecord
  2
ByBlock
 70
     0
  3

 72
    65
 73
     0
 40
0.0
  0
LTYPE
  5
15
330
5
100
AcDbSymbolTableRecord
100
AcDbLinetypeTableRecord
  2
ByLayer
 70
     0
  3

 72
    65
 73
     0
 40
0.0
  0
LTYPE
  5
16
330
5
100
AcDbSymbolTableRecord
100
AcDbLinetypeTableRecord
  2
Continuous
 70
     0
  3
Solid line
 72
    65
 73
     0
 40
0.0
  0
LTYPE
  5
6E
330
5
100
AcDbSymbolTableRecord
100
AcDbLinetypeTableRecord
  2
HIDDEN
 70
     0
  3
Hidden __ __ __ __ __ __ __ __ __ __ __ __ __ __
 72
    65
 73
     2
 40
1.905
 49
1.27
 74
     0
 49
-0.635
 74
     0
  0
LTYPE
  5
6F
330
5
100
AcDbSymbolTableRecord
100
AcDbLinetypeTableRecord
  2
PHANTOM
 70
     0
  3
Phantom ______  __  __  ______  __  __  ______
 72
    65
 73
     6
 40
12.7
 49
6.35
 74
     0
 49
-1.27
 74
     0
 49
1.27
 74
     0
 49
-1.27
 74
     0
 49
1.27
 74
     0
 49
-1.27
 74
     0
  0
LTYPE
  5
70
330
5
100
AcDbSymbolTableRecord
100
AcDbLinetypeTableRecord
  2
CENTER
 70
     0
  3
Center ____ _ ____ _ ____ _ ____ _ ____ _ ____
 72
    65
 73
     4
 40
10.16
 49
6.35
 74
     0
 49
-1.27
 74
     0
 49
1.27
 74
     0
 49
-1.27
 74
     0
  0
LTYPE
  5
71
330
5
100
AcDbSymbolTableRecord
100
AcDbLinetypeTableRecord
  2
CENTERX2
 70
     0
  3
Center (2x) ________  __  ________  __  _____
 72
    65
 73
     4
 40
20.32
 49
12.7
 74
     0
 49
-2.54
 74
     0
 49
2.54
 74
     0
 49
-2.54
 74
     0
  0
LTYPE
  5
72
330
5
100
AcDbSymbolTableRecord
100
AcDbLinetypeTableRecord
  2
DOT2
 70
     0
  3
Dot (.5x) ........................................
 72
    65
 73
     2
 40
0.635
 49
0.0
 74
     0
 49
-0.635
 74
     0
  0
ENDTAB
  0
TABLE
  2
LAYER
  5
2
330
0
100
AcDbSymbolTable
 70
    17
  0
LAYER
  5
10
330
2
100
AcDbSymbolTableRecord
100
AcDbLayerTableRecord
  2
0
 70
     0
 62
     7
  6
Continuous
370
    -3
390
F
  0
LAYER
  5
73
330
2
100
AcDbSymbolTableRecord
100
AcDbLayerTableRecord
  2
FORMAT
 70
     0
 62
     7
  6
Continuous
370
    -3
390
F
  0
LAYER
  5
74
330
2
100
AcDbSymbolTableRecord
100
AcDbLayerTableRecord
  2
YARDIMCI_GEOMETRI
 70
     0
 62
    -6
  6
Continuous
290
     0
370
    -3
390
F
  0
LAYER
  5
75
330
2
100
AcDbSymbolTableRecord
100
AcDbLayerTableRecord
  2
SAYFA_CERCEVESI
 70
     0
 62
     7
  6
Continuous
370
    25
390
F
  0
LAYER
  5
76
330
2
100
AcDbSymbolTableRecord
100
AcDbLayerTableRecord
  2
ANTET
 70
     0
 62
     7
  6
Continuous
370
    -3
390
F
  0
LAYER
  5
77
330
2
100
AcDbSymbolTableRecord
100
AcDbLayerTableRecord
  2
OLCU
 70
     0
 62
   150
  6
Continuous
370
    -3
390
F
  0
LAYER
  5
78
330
2
100
AcDbSymbolTableRecord
100
AcDbLayerTableRecord
  2
METIN
 70
     0
 62
    96
  6
Continuous
370
    -3
390
F
  0
LAYER
  5
79
330
2
100
AcDbSymbolTableRecord
100
AcDbLayerTableRecord
  2
BALON
 70
     0
 62
     5
  6
Continuous
370
    -3
390
F
  0
LAYER
  5
7A
330
2
100
AcDbSymbolTableRecord
100
AcDbLayerTableRecord
  2
VURGU
 70
     0
 62
     7
  6
Continuous
370
    -3
390
F
  0
LAYER
  5
7B
330
2
100
AcDbSymbolTableRecord
100
AcDbLayerTableRecord
  2
SILIK
 70
     0
 62
     7
  6
Continuous
370
    -3
390
F
  0
LAYER
  5
7C
330
2
100
AcDbSymbolTableRecord
100
AcDbLayerTableRecord
  2
MODEL
 70
     0
 62
     7
  6
Continuous
370
    -3
390
F
  0
LAYER
  5
7D
330
2
100
AcDbSymbolTableRecord
100
AcDbLayerTableRecord
  2
DETAYLANDıRMA
 70
     0
 62
   190
  6
Continuous
370
    -3
390
F
  0
LAYER
  5
7E
330
2
100
AcDbSymbolTableRecord
100
AcDbLayerTableRecord
  2
TOLERANS
 70
     0
 62
   230
  6
Continuous
370
    -3
390
F
  0
LAYER
  5
7F
330
2
100
AcDbSymbolTableRecord
100
AcDbLayerTableRecord
  2
MERKEZ_CIZGILERI
 70
     0
 62
    30
  6
Continuous
370
    -3
390
F
  0
LAYER
  5
80
330
2
100
AcDbSymbolTableRecord
100
AcDbLayerTableRecord
  2
KESIT-DETAY_CIZGILERI
 70
     0
 62
     7
  6
Continuous
370
    -3
390
F
  0
LAYER
  5
81
330
2
100
AcDbSymbolTableRecord
100
AcDbLayerTableRecord
  2
\U+041E\U+0421\U+0415\U+0412\U+042B\U+0415
 70
     0
 62
     7
  6
Continuous
370
    -3
390
F
  0
LAYER
  5
82
330
2
100
AcDbSymbolTableRecord
100
AcDbLayerTableRecord
  2
\U+0412\U+041E\U+0414\U+042F\U+041D\U+042B\U+0415_\U+0417\U+041D\U+0410\U+041A\U+0418
 70
     0
 62
    11
  6
Continuous
370
    -3
390
F
  0
ENDTAB
  0
TABLE
  2
STYLE
  5
3
330
0
100
AcDbSymbolTable
 70
     1
  0
STYLE
  5
11
330
3
100
AcDbSymbolTableRecord
100
AcDbTextStyleTableRecord
  2
Standard
 70
     0
 40
0.0
 41
1.0
 50
0.0
 71
     0
 42
3.5
  3
txt
  4

  0
ENDTAB
  0
TABLE
  2
VIEW
  5
6
330
0
100
AcDbSymbolTable
 70
     0
  0
ENDTAB
  0
TABLE
  2
UCS
  5
7
330
0
100
AcDbSymbolTable
 70
     0
  0
ENDTAB
  0
TABLE
  2
APPID
  5
9
330
0
100
AcDbSymbolTable
 70
     1
  0
APPID
  5
12
330
9
100
AcDbSymbolTableRecord
100
AcDbRegAppTableRecord
  2
ACAD
 70
     0
  0
ENDTAB
  0
TABLE
  2
DIMSTYLE
  5
A
330
0
100
AcDbSymbolTable
 70
     1
100
AcDbDimStyleTable
  0
DIMSTYLE
105
27
330
A
100
AcDbSymbolTableRecord
100
AcDbDimStyleTableRecord
  2
ISO-25
 70
     0
 41
2.5
 42
0.625
 43
3.75
 44
1.25
 73
     0
 74
     0
 77
     1
 78
     8
140
2.5
141
2.5
143
0.0393700787
147
0.625
171
     3
172
     1
178
     0
271
     2
272
     2
274
     3
278
    44
283
     0
284
     8
340
11
  0
ENDTAB
  0
TABLE
  2
BLOCK_RECORD
  5
1
330
0
100
AcDbSymbolTable
 70
     3
  0
BLOCK_RECORD
  5
1F
330
1
100
AcDbSymbolTableRecord
100
AcDbBlockTableRecord
  2
*Model_Space
340
22
  0
BLOCK_RECORD
  5
1B
330
1
100
AcDbSymbolTableRecord
100
AcDbBlockTableRecord
  2
*Paper_Space
340
1E
  0
BLOCK_RECORD
  5
23
330
1
100
AcDbSymbolTableRecord
100
AcDbBlockTableRecord
  2
*Paper_Space0
340
26
  0
BLOCK_RECORD
  5
88
330
1
100
AcDbSymbolTableRecord
100
AcDbBlockTableRecord
  2
SW_CENTERMARKSYMBOL_0
340
0
102
{BLKREFS
331
93
102
}
  0
BLOCK_RECORD
  5
B2
330
1
100
AcDbSymbolTableRecord
100
AcDbBlockTableRecord
  2
SW_CENTERMARKSYMBOL_1
340
0
102
{BLKREFS
331
BD
102
}
  0
ENDTAB
  0
ENDSEC
  0
SECTION
  2
BLOCKS
  0
BLOCK
  5
20
330
1F
100
AcDbEntity
  8
0
100
AcDbBlockBegin
  2
*Model_Space
 70
     0
 10
0.0
 20
0.0
 30
0.0
  3
*Model_Space
  1

  0
ENDBLK
  5
21
330
1F
100
AcDbEntity
  8
0
100
AcDbBlockEnd
  0
BLOCK
  5
1C
330
1B
100
AcDbEntity
 67
     1
  8
0
100
AcDbBlockBegin
  2
*Paper_Space
 70
     0
 10
0.0
 20
0.0
 30
0.0
  3
*Paper_Space
  1

  0
ENDBLK
  5
1D
330
1B
100
AcDbEntity
 67
     1
  8
0
100
AcDbBlockEnd
  0
BLOCK
  5
24
330
23
100
AcDbEntity
  8
0
100
AcDbBlockBegin
  2
*Paper_Space0
 70
     0
 10
0.0
 20
0.0
 30
0.0
  3
*Paper_Space0
  1

  0
ENDBLK
  5
25
330
23
100
AcDbEntity
  8
0
100
AcDbBlockEnd
  0
BLOCK
  5
89
330
88
100
AcDbEntity
  8
0
100
AcDbBlockBegin
  2
SW_CENTERMARKSYMBOL_0
 70
     0
 10
0.0
 20
0.0
 30
0.0
  3
SW_CENTERMARKSYMBOL_0
  1

  0
LINE
  5
8B
330
88
100
AcDbEntity
  8
FORMAT
 62
     0
100
AcDbLine
 10
0.0
 20
0.0
 30
0.0
 11
0.0
 21
2.5
 31
0.0
  0
LINE
  5
8C
330
88
100
AcDbEntity
  8
FORMAT
 62
     0
100
AcDbLine
 10
0.0
 20
0.0
 30
0.0
 11
-2.5
 21
0.0
 31
0.0
  0
LINE
  5
8D
330
88
100
AcDbEntity
  8
FORMAT
 62
     0
100
AcDbLine
 10
0.0
 20
0.0
 30
0.0
 11
0.0
 21
-2.5
 31
0.0
  0
LINE
  5
8E
330
88
100
AcDbEntity
  8
FORMAT
 62
     0
100
AcDbLine
 10
0.0
 20
0.0
 30
0.0
 11
2.5
 21
0.0
 31
0.0
  0
LINE
  5
8F
330
88
100
AcDbEntity
  8
FORMAT
 62
     0
100
AcDbLine
 10
0.0
 20
5.0
 30
0.0
 11
0.0
 21
82.5
 31
0.0
  0
LINE
  5
90
330
88
100
AcDbEntity
  8
FORMAT
 62
     0
100
AcDbLine
 10
-5.0
 20
0.0
 30
0.0
 11
-82.5
 21
0.0
 31
0.0
  0
LINE
  5
91
330
88
100
AcDbEntity
  8
FORMAT
 62
     0
100
AcDbLine
 10
0.0
 20
-5.0
 30
0.0
 11
0.0
 21
-82.5
 31
0.0
  0
LINE
  5
92
330
88
100
AcDbEntity
  8
FORMAT
 62
     0
100
AcDbLine
 10
5.0
 20
0.0
 30
0.0
 11
82.5
 21
0.0
 31
0.0
  0
ENDBLK
  5
8A
330
88
100
AcDbEntity
  8
0
100
AcDbBlockEnd
  0
BLOCK
  5
B3
330
B2
100
AcDbEntity
  8
0
100
AcDbBlockBegin
  2
SW_CENTERMARKSYMBOL_1
 70
     0
 10
0.0
 20
0.0
 30
0.0
  3
SW_CENTERMARKSYMBOL_1
  1

  0
LINE
  5
B5
330
B2
100
AcDbEntity
  8
FORMAT
 62
     0
100
AcDbLine
 10
0.0
 20
0.0
 30
0.0
 11
0.0
 21
2.5
 31
0.0
  0
LINE
  5
B6
330
B2
100
AcDbEntity
  8
FORMAT
 62
     0
100
AcDbLine
 10
0.0
 20
0.0
 30
0.0
 11
-2.5
 21
0.0
 31
0.0
  0
LINE
  5
B7
330
B2
100
AcDbEntity
  8
FORMAT
 62
     0
100
AcDbLine
 10
0.0
 20
0.0
 30
0.0
 11
0.0
 21
-2.5
 31
0.0
  0
LINE
  5
B8
330
B2
100
AcDbEntity
  8
FORMAT
 62
     0
100
AcDbLine
 10
0.0
 20
0.0
 30
0.0
 11
2.5
 21
0.0
 31
0.0
  0
LINE
  5
B9
330
B2
100
AcDbEntity
  8
FORMAT
 62
     0
100
AcDbLine
 10
0.0
 20
5.0
 30
0.0
 11
0.0
 21
47.5
 31
0.0
  0
LINE
  5
BA
330
B2
100
AcDbEntity
  8
FORMAT
 62
     0
100
AcDbLine
 10
-5.0
 20
0.0
 30
0.0
 11
-47.5
 21
0.0
 31
0.0
  0
LINE
  5
BB
330
B2
100
AcDbEntity
  8
FORMAT
 62
     0
100
AcDbLine
 10
0.0
 20
-5.0
 30
0.0
 11
0.0
 21
-47.5
 31
0.0
  0
LINE
  5
BC
330
B2
100
AcDbEntity
  8
FORMAT
 62
     0
100
AcDbLine
 10
5.0
 20
0.0
 30
0.0
 11
47.5
 21
0.0
 31
0.0
  0
ENDBLK
  5
B4
330
B2
100
AcDbEntity
  8
0
100
AcDbBlockEnd
  0
ENDSEC
  0
SECTION
  2
ENTITIES
  0
LINE
  5
83
330
1F
100
AcDbEntity
  8
0
  6
Continuous
 62
     7
370
    25
100
AcDbLine
 10
149.6352910004
 20
60.5312991345
 30
0.0
 11
270.4883951408
 21
60.5312991345
 31
0.0
  0
LINE
  5
84
330
1F
100
AcDbEntity
  8
0
  6
Continuous
 62
     7
370
    25
100
AcDbLine
 10
270.4883951408
 20
150.5312991345
 30
0.0
 11
149.6597838942
 21
150.5312991345
 31
0.0
  0
CIRCLE
  5
85
330
1F
100
AcDbEntity
  8
0
  6
Continuous
 62
     7
370
    25
100
AcDbCircle
 10
83.4883951408
 20
105.5312991345
 30
0.0
 40
65.39999999999999
  0
CIRCLE
  5
86
330
1F
100
AcDbEntity
  8
0
  6
Continuous
 62
     7
370
    25
100
AcDbCircle
 10
83.4883951408
 20
105.5312991345
 30
0.0
 40
79.99999999999999
  0
LINE
  5
87
330
1F
100
AcDbEntity
  8
0
  6
Continuous
 62
     7
370
    25
100
AcDbLine
 10
270.4883951408
 20
150.5312991345
 30
0.0
 11
270.4883951408
 21
60.5312991345
 31
0.0
  0
INSERT
  5
93
330
1F
100
AcDbEntity
  8
FORMAT
100
AcDbBlockReference
  2
SW_CENTERMARKSYMBOL_0
 10
83.4883951408
 20
105.5312991345
 30
0.0
  0
LINE
  5
94
330
1F
100
AcDbEntity
  8
0
  6
Continuous
 62
     7
370
    25
100
AcDbLine
 10
3.4883951408
 20
-65.9081634574
 30
0.0
 11
3.4883951408
 21
-482.9081634574
 31
0.0
  0
LINE
  5
95
330
1F
100
AcDbEntity
  8
0
  6
Continuous
 62
     7
370
    25
100
AcDbLine
 10
163.4883951408
 20
-229.4216663338
 30
0.0
 11
163.4883951408
 21
-65.9081634574
 31
0.0
  0
LINE
  5
96
330
1F
100
AcDbEntity
  8
0
  6
Continuous
 62
     7
370
    25
100
AcDbLine
 10
163.4883951408
 20
-482.9081634574
 30
0.0
 11
163.4883951408
 21
-319.4081634574
 31
0.0
  0
LINE
  5
97
330
1F
100
AcDbEntity
  8
0
  6
Continuous
 62
     7
370
    25
100
AcDbLine
 10
163.4883951408
 20
-319.4081634574
 30
0.0
 11
270.4883951408
 21
-319.4081634574
 31
0.0
  0
LINE
  5
98
330
1F
100
AcDbEntity
  8
0
  6
Continuous
 62
     7
370
    25
100
AcDbLine
 10
270.4883951408
 20
-229.4081634574
 30
0.0
 11
163.4808036356
 21
-229.4081634574
 31
0.0
  0
SPLINE
  5
99
330
1F
100
AcDbEntity
  8
0
  6
Continuous
 62
     7
370
    25
100
AcDbSpline
210
0.0
220
0.0
230
1.0
 70
     8
 71
     3
 72
    34
 73
    30
 74
     0
 42
0.000000001
 43
0.00000001
 40
0.0
 40
0.0
 40
0.0
 40
0.0
 40
0.0023453550654464
 40
0.0485449711734403
 40
0.0961109933995941
 40
0.1421459247641661
 40
0.1892855825975873
 40
0.2401313036896156
 40
0.2921868738575141
 40
0.3201988856828186
 40
0.3482088075524686
 40
0.3771272217799304
 40
0.4060409419759696
 40
0.4502444581026638
 40
0.4956926375777766
 40
0.539919594037739
 40
0.5854657982874002
 40
0.6294848892298518
 40
0.6744753273845465
 40
0.7252011239912778
 40
0.7771125415962702
 40
0.8052369221952604
 40
0.8333592403245458
 40
0.8624119013670208
 40
0.8914611992020461
 40
0.9180824402005517
 40
0.9447015257980126
 40
0.9723512839787914
 40
1.0
 40
1.0
 40
1.0
 40
1.0
 10
163.4807968787834
 20
-229.4216663337749
 30
0.0
 10
163.4832431726033
 20
-229.4173196250828
 30
0.0
 10
163.5338774090638
 20
-229.3273499436204
 30
0.0
 10
163.2453372992365
 20
-229.8390311833365
 30
0.0
 10
162.4153715409842
 20
-231.3340910248113
 30
0.0
 10
161.0737182641502
 20
-233.8313223889365
 30
0.0
 10
159.3444523769719
 20
-237.2214097842952
 30
0.0
 10
157.2827438326979
 20
-241.5909561192315
 30
0.0
 10
155.4024738166101
 20
-246.0811750777726
 30
0.0
 10
153.9103435915328
 20
-250.1718667636205
 30
0.0
 10
152.8047615617585
 20
-253.5863658843124
 30
0.0
 10
151.7951421179085
 20
-257.2274118445413
 30
0.0
 10
150.7716880703472
 20
-261.7573880345439
 30
0.0
 10
149.9135519596597
 20
-267.2811610785636
 30
0.0
 10
149.5282435513006
 20
-273.7291323080826
 30
0.0
 10
149.7867583176151
 20
-280.2605901706025
 30
0.0
 10
150.6462677198221
 20
-286.5504262043043
 30
0.0
 10
151.998568058457
 20
-292.5431800835116
 30
0.0
 10
153.7540150169048
 20
-298.3206905659953
 30
0.0
 10
155.8285317060038
 20
-303.8391410329015
 30
0.0
 10
157.6977033608839
 20
-308.1035344192298
 30
0.0
 10
159.1546321788187
 20
-311.173623875886
 30
0.0
 10
160.2266488521553
 20
-313.3280807099987
 30
0.0
 10
161.1993257589974
 20
-315.2094371153707
 30
0.0
 10
162.0179004403826
 20
-316.743637664286
 30
0.0
 10
162.6592363098585
 20
-317.9199149123048
 30
0.0
 10
163.1261041827594
 20
-318.7619573211239
 30
0.0
 10
163.4298122716115
 20
-319.3045434707597
 30
0.0
 10
163.4688677631047
 20
-319.3736238957868
 30
0.0
 10
163.4883951408298
 20
-319.4081634573527
 30
0.0
  0
LINE
  5
9A
330
1F
100
AcDbEntity
  8
0
  6
Continuous
 62
     7
370
    25
100
AcDbLine
 10
163.4883951408
 20
-482.9081634574
 30
0.0
 11
3.4883951408
 21
-482.9081634574
 31
0.0
  0
LINE
  5
9B
330
1F
100
AcDbEntity
  8
0
  6
Continuous
 62
     7
370
    25
100
AcDbLine
 10
163.4883951408
 20
-65.9081634574
 30
0.0
 11
3.4883951408
 21
-65.9081634574
 31
0.0
  0
LINE
  5
9C
330
1F
100
AcDbEntity
  8
0
  6
Continuous
 62
     7
370
    25
100
AcDbLine
 10
270.4883951408
 20
-229.4081634574
 30
0.0
 11
270.4883951408
 21
-319.4081634574
 31
0.0
  0
LINE
  5
9D
330
1F
100
AcDbEntity
  8
0
  6
Continuous
 62
     7
370
    25
100
AcDbLine
 10
163.4883951408
 20
534.8046862668
 30
0.0
 11
163.4883951408
 21
698.3046862668
 31
0.0
  0
LINE
  5
9E
330
1F
100
AcDbEntity
  8
0
  6
Continuous
 62
     7
370
    25
100
AcDbLine
 10
163.4883951408
 20
281.3046862668
 30
0.0
 11
163.4883951408
 21
444.8182176032
 31
0.0
  0
LINE
  5
9F
330
1F
100
AcDbEntity
  8
0
  6
Continuous
 62
     7
370
    25
100
AcDbLine
 10
3.4883951408
 20
698.3046862668
 30
0.0
 11
3.4883951408
 21
281.3046862668
 31
0.0
  0
LINE
  5
A0
330
1F
100
AcDbEntity
  8
0
  6
Continuous
 62
     7
370
    25
100
AcDbLine
 10
163.4807981565
 20
444.8046862668
 30
0.0
 11
270.4883951408
 21
444.8046862668
 31
0.0
  0
LINE
  5
A1
330
1F
100
AcDbEntity
  8
0
  6
Continuous
 62
     7
370
    25
100
AcDbLine
 10
270.4883951408
 20
534.8046862668
 30
0.0
 11
163.4883951408
 21
534.8046862668
 31
0.0
  0
SPLINE
  5
A2
330
1F
100
AcDbEntity
  8
0
  6
Continuous
 62
     7
370
    25
100
AcDbSpline
210
0.0
220
0.0
230
1.0
 70
     8
 71
     3
 72
    33
 73
    29
 74
     0
 42
0.000000001
 43
0.00000001
 40
0.0
 40
0.0
 40
0.0
 40
0.0
 40
0.0475728150783222
 40
0.0966437469145376
 40
0.1441893529370795
 40
0.192949424071567
 40
0.2439292132004118
 40
0.296123536696141
 40
0.3240752315749492
 40
0.3522295488814077
 40
0.3810703959685745
 40
0.4101771165556521
 40
0.4542191633778184
 40
0.4995056892973975
 40
0.5435685217464005
 40
0.588926456217863
 40
0.6331092302585477
 40
0.6782612843293057
 40
0.7293071858211809
 40
0.7815586818661564
 40
0.8095965005300754
 40
0.837843362413645
 40
0.8667931298359773
 40
0.8960085928258564
 40
0.9219961615418791
 40
0.948203702577512
 40
0.9751415026298641
 40
1.0
 40
1.0
 40
1.0
 40
1.0
 10
163.4883951408298
 20
534.8046862667555
 30
0.0
 10
163.4307851848258
 20
534.702669815012
 30
0.0
 10
163.3137510761937
 20
534.4954243087876
 30
0.0
 10
162.3942218851817
 20
532.8416003519458
 30
0.0
 10
161.0126293598084
 20
530.2664647577453
 30
0.0
 10
159.2193342393324
 20
526.7396255853877
 30
0.0
 10
157.1198517250471
 20
522.257216269923
 30
0.0
 10
155.2367389638447
 20
517.7108610340352
 30
0.0
 10
153.7508848691672
 20
513.575547659801
 30
0.0
 10
152.6577837233217
 20
510.133419922523
 30
0.0
 10
151.6629780114471
 20
506.4567771864536
 30
0.0
 10
150.6691676327882
 20
501.9021584042434
 30
0.0
 10
149.8547563677186
 20
496.3620523701547
 30
0.0
 10
149.5256375506446
 20
489.9280980071389
 30
0.0
 10
149.8364309543556
 20
483.4292948000128
 30
0.0
 10
150.7381273858969
 20
477.1699194900656
 30
0.0
 10
152.124440542518
 20
471.2021979705343
 30
0.0
 10
153.9102375436601
 20
465.4389234352306
 30
0.0
 10
156.0062475378681
 20
459.9415309705226
 30
0.0
 10
157.8785953546813
 20
455.7141249861256
 30
0.0
 10
159.32787451651
 20
452.6848910696907
 30
0.0
 10
160.3837044597129
 20
450.5765040099896
 30
0.0
 10
161.3394567019929
 20
448.737986739965
 30
0.0
 10
162.1281886273688
 20
447.2652979042704
 30
0.0
 10
162.7387837236963
 20
446.149014376907
 30
0.0
 10
163.1707436193282
 20
445.3708100821946
 30
0.0
 10
163.4423089647146
 20
444.8865243353865
 30
0.0
 10
163.4683118435552
 20
444.840368894965
 30
0.0
 10
163.4807913551698
 20
444.8182176032428
 30
0.0
  0
LINE
  5
A3
330
1F
100
AcDbEntity
  8
0
  6
Continuous
 62
     7
370
    25
100
AcDbLine
 10
3.4883951408
 20
698.3046862668
 30
0.0
 11
163.4883951408
 21
698.3046862668
 31
0.0
  0
LINE
  5
A4
330
1F
100
AcDbEntity
  8
0
  6
Continuous
 62
     7
370
    25
100
AcDbLine
 10
3.4883951408
 20
281.3046862668
 30
0.0
 11
163.4883951408
 21
281.3046862668
 31
0.0
  0
LINE
  5
A5
330
1F
100
AcDbEntity
  8
0
  6
Continuous
 62
     7
370
    25
100
AcDbLine
 10
270.4883951408
 20
534.8046862668
 30
0.0
 11
270.4883951408
 21
444.8046862668
 31
0.0
  0
LINE
  5
A6
330
1F
100
AcDbEntity
  8
0
  6
Continuous
 62
     7
370
    25
100
AcDbLine
 10
362.0772074794
 20
25.5312991345
 30
0.0
 11
779.0772074794
 21
25.5312991345
 31
0.0
  0
LINE
  5
A7
330
1F
100
AcDbEntity
  8
0
  6
Continuous
 62
     7
370
    25
100
AcDbLine
 10
779.0772074794
 20
185.5312991345
 30
0.0
 11
362.0772074794
 21
185.5312991345
 31
0.0
  0
LINE
  5
A8
330
1F
100
AcDbEntity
  8
0
  6
Continuous
 62
     7
370
    25
100
AcDbLine
 10
779.0772074794
 20
185.5312991345
 30
0.0
 11
779.0772074794
 21
25.5312991345
 31
0.0
  0
LINE
  5
A9
330
1F
100
AcDbEntity
  8
0
  6
Continuous
 62
     7
370
    25
100
AcDbLine
 10
362.0772074794
 20
185.5312991345
 30
0.0
 11
362.0772074794
 21
25.5312991345
 31
0.0
  0
LINE
  5
AA
330
1F
100
AcDbEntity
  8
0
  6
Continuous
 62
     7
370
    25
100
AcDbLine
 10
-76.5285983242
 20
185.5312991345
 30
0.0
 11
-493.5285983242
 21
185.5312991345
 31
0.0
  0
LINE
  5
AB
330
1F
100
AcDbEntity
  8
0
  6
Continuous
 62
     7
370
    25
100
AcDbLine
 10
-493.5285983242
 20
25.5312991345
 30
0.0
 11
-76.5285983242
 21
25.5312991345
 31
0.0
  0
CIRCLE
  5
AC
330
1F
100
AcDbEntity
  8
0
  6
Continuous
 62
     7
370
    25
100
AcDbCircle
 10
-285.0285983242
 20
105.5312991345
 30
0.0
 40
36.80000000000001
  0
CIRCLE
  5
AD
330
1F
100
AcDbEntity
  8
0
  6
Continuous
 62
     7
370
    25
100
AcDbCircle
 10
-285.0285983242
 20
105.5312991345
 30
0.0
 40
45.00000000000003
  0
LINE
  5
AE
330
1F
100
AcDbEntity
  8
0
  6
Continuous
 62
     7
370
    25
100
AcDbLine
 10
-493.5285983242
 20
105.5312991345
 30
0.0
 11
-493.5285983242
 21
185.5312991345
 31
0.0
  0
LINE
  5
AF
330
1F
100
AcDbEntity
  8
0
  6
Continuous
 62
     7
370
    25
100
AcDbLine
 10
-493.5285983242
 20
25.5312991345
 30
0.0
 11
-493.5285983242
 21
105.5312991345
 31
0.0
  0
LINE
  5
B0
330
1F
100
AcDbEntity
  8
0
  6
Continuous
 62
     7
370
    25
100
AcDbLine
 10
-76.5285983242
 20
105.5312991345
 30
0.0
 11
-76.5285983242
 21
185.5312991345
 31
0.0
  0
LINE
  5
B1
330
1F
100
AcDbEntity
  8
0
  6
Continuous
 62
     7
370
    25
100
AcDbLine
 10
-76.5285983242
 20
25.5312991345
 30
0.0
 11
-76.5285983242
 21
105.5312991345
 31
0.0
  0
INSERT
  5
BD
330
1F
100
AcDbEntity
  8
FORMAT
100
AcDbBlockReference
  2
SW_CENTERMARKSYMBOL_1
 10
-285.0285983242
 20
105.5312991345
 30
0.0
  0
LINE
  5
BE
330
1F
100
AcDbEntity
  8
0
  6
Continuous
 62
     7
370
    25
100
AcDbLine
 10
742.6305481661
 20
-281.1126915325
 30
0.0
 11
680.2121942293
 21
-245.0793427962
 31
0.0
  0
LINE
  5
BF
330
1F
100
AcDbEntity
  8
0
  6
Continuous
 62
     7
370
    25
100
AcDbLine
 10
590.2048795721
 20
-193.1192260468
 30
0.0
 11
447.7670204113
 21
-110.8916002175
 31
0.0
  0
LINE
  5
C0
330
1F
100
AcDbEntity
  8
0
  6
Continuous
 62
     7
370
    25
100
AcDbLine
 10
367.7735218004
 20
-249.4594181984
 30
0.0
 11
662.6370495552
 21
-419.6805095134
 31
0.0
  0
LINE
  5
C1
330
1F
100
AcDbEntity
  8
0
  6
Continuous
 62
     7
370
    25
100
AcDbLine
 10
629.5937382209
 20
-274.3007554547
 30
0.0
 11
709.9291745494
 21
-227.9240952172
 31
0.0
  0
LINE
  5
C2
330
1F
100
AcDbEntity
  8
0
  6
Continuous
 62
     7
370
    25
100
AcDbLine
 10
664.9328315808
 20
-149.9796976029
 30
0.0
 11
584.5984085317
 21
-196.3557728866
 31
0.0
  0
SPLINE
  5
C3
330
1F
100
AcDbEntity
  8
0
  6
Continuous
 62
     7
370
    25
100
AcDbSpline
210
0.0
220
0.0
230
1.0
 70
     8
 71
     3
 72
    25
 73
    21
 74
     0
 42
0.000000001
 43
0.00000001
 40
0.0
 40
0.0
 40
0.0
 40
0.0
 40
0.0634046349637751
 40
0.128805946937539
 40
0.192174317907968
 40
0.2571613174370048
 40
0.3251067378398756
 40
0.3946708791037358
 40
0.431924655393658
 40
0.4694484850962171
 40
0.5078873157308402
 40
0.5466805002581356
 40
0.6053793579401862
 40
0.6657368465601284
 40
0.7244634071451901
 40
0.7849160684631954
 40
0.8438024861604551
 40
0.903980751867619
 40
0.9720142862540251
 40
1.0
 40
1.0
 40
1.0
 40
1.0
 10
579.9507723247668
 20
-214.260547876527
 30
0.0
 10
579.9821724590491
 20
-216.1996371594641
 30
0.0
 10
580.0459615500597
 20
-220.1388796364192
 30
0.0
 10
580.565186358119
 20
-226.694052954876
 30
0.0
 10
581.4091487566557
 20
-233.5266337588224
 30
0.0
 10
582.6349495076328
 20
-240.5391497333256
 30
0.0
 10
584.3199332220146
 20
-247.6593510299166
 30
0.0
 10
586.2031299896554
 20
-253.5544925122085
 30
0.0
 10
588.0765807127158
 20
-258.1547616818111
 30
0.0
 10
589.73759302663
 20
-261.5876965782006
 30
0.0
 10
591.6339393997819
 20
-264.8497661619108
 30
0.0
 10
594.1518057257098
 20
-268.4022472204416
 30
0.0
 10
597.4934077644659
 20
-271.9975427384931
 30
0.0
 10
601.8100512093282
 20
-275.1500949363329
 30
0.0
 10
606.6256308789142
 20
-277.3065868965107
 30
0.0
 10
611.6875046196616
 20
-278.3844460366842
 30
0.0
 10
616.8941153900013
 20
-278.4587033410292
 30
0.0
 10
622.206312325429
 20
-277.5062306254366
 30
0.0
 10
626.5320619380967
 20
-276.0853629198568
 30
0.0
 10
628.8478643222722
 20
-274.6103635197488
 30
0.0
 10
629.5228267269605
 20
-274.1804610596712
 30
0.0
  0
SPLINE
  5
C4
330
1F
100
AcDbEntity
  8
0
  6
Continuous
 62
     7
370
    25
100
AcDbSpline
210
0.0
220
0.0
230
1.0
 70
     8
 71
     3
 72
    16
 73
    12
 74
     0
 42
0.000000001
 43
0.00000001
 40
0.0
 40
0.0
 40
0.0
 40
0.0
 40
0.1073289111342833
 40
0.2195495148520099
 40
0.3325979896144897
 40
0.4484239333545089
 40
0.5652980177466098
 40
0.671449171883242
 40
0.7785272078837191
 40
0.8886973293793339
 40
1.0
 40
1.0
 40
1.0
 40
1.0
 10
584.6701540639081
 20
-196.4796252011436
 30
0.0
 10
584.3060465075314
 20
-196.6542719954839
 30
0.0
 10
583.5612365908777
 20
-197.011525400579
 30
0.0
 10
582.7168670021019
 20
-198.1350454343329
 30
0.0
 10
581.9437429005252
 20
-199.5248752218467
 30
0.0
 10
581.3024187305882
 20
-201.2889007580362
 30
0.0
 10
580.7963109991031
 20
-203.3463460227564
 30
0.0
 10
580.4172068395898
 20
-205.6589605302053
 30
0.0
 10
580.1522875038754
 20
-208.2082327503231
 30
0.0
 10
579.982682982892
 20
-211.0560647111069
 30
0.0
 10
579.961445411783
 20
-213.1887515026695
 30
0.0
 10
579.9507723247668
 20
-214.260547876527
 30
0.0
  0
LWPOLYLINE
  5
C5
330
1F
100
AcDbEntity
  8
0
  6
Continuous
 62
     7
370
    25
100
AcDbPolyline
 90
       95
 70
   128
 43
0.0
 10
464.3388136008
 20
-147.519184735
 10
464.2124891793
 20
-143.2289973604
 10
463.8340801103
 20
-139.1038220766
 10
463.2052764606
 20
-135.1620829178
 10
462.3288866199
 20
-131.421384648
 10
461.2088247581
 20
-127.8984341337
 10
459.8500933432
 20
-124.6089657272
 10
458.2587607997
 20
-121.5676709928
 10
456.4419344049
 20
-118.7881330912
 10
454.4077285466
 20
-116.2827661133
 10
452.165228482
 20
-114.0627596363
 10
449.7244497606
 20
-112.138028748
 10
447.0962934929
 20
-110.5171697638
 10
444.2924976627
 20
-109.2074218333
 10
441.3255847027
 20
-108.2146346088
 10
438.2088055665
 20
-107.5432421191
 10
434.9560805464
 20
-107.1962429659
 10
431.5819371019
 20
-107.1751869318
 10
428.1014449766
 20
-107.480168058
 10
424.5301488934
 20
-108.1098242249
 10
420.8839991274
 20
-109.0613432351
 10
417.1792802687
 20
-110.3304753737
 10
413.432538491
 20
-111.9115523887
 10
409.6605076527
 20
-113.7975128061
 10
405.880034559
 20
-115.9799334689
 10
402.1080037206
 20
-118.4490671567
 10
398.361261943
 20
-121.193886119
 10
394.6565430843
 20
-124.2021313281
 10
391.0103933183
 20
-127.4603672305
 10
387.4390972351
 20
-130.9540417537
 10
383.9586051098
 20
-134.6675512993
 10
380.5844616653
 20
-138.5843104322
 10
377.3317366452
 20
-142.6868259552
 10
374.214957509
 20
-146.9567750381
 10
371.248044549
 20
-151.3750870518
 10
368.4442487188
 20
-155.9220287423
 10
365.816092451
 20
-160.5772923641
 10
363.3753137297
 20
-165.3200863799
 10
361.1328136651
 20
-170.1292283203
 10
359.0986078068
 20
-174.9832393899
 10
357.281781412
 20
-179.8604403969
 10
355.6904488684
 20
-184.7390485777
 10
354.3317174536
 20
-189.5972748839
 10
353.2116555917
 20
-194.4134212974
 10
352.3352657511
 20
-199.1659777392
 10
351.7064621014
 20
-203.8337181385
 10
351.3280530324
 20
-208.3957952337
 10
351.2017286109
 20
-212.8318336808
 10
351.3280530324
 20
-217.1220210555
 10
351.7064621014
 20
-221.2471963393
 10
352.3352657511
 20
-225.1889354981
 10
353.2116555917
 20
-228.9296337679
 10
354.3317174536
 20
-232.4525842821
 10
355.6904488684
 20
-235.7420526887
 10
357.281781412
 20
-238.783347423
 10
359.0986078068
 20
-241.5628853247
 10
361.1328136651
 20
-244.0682523025
 10
363.3753137297
 20
-246.2882587795
 10
365.816092451
 20
-248.2129896679
 10
368.4442487188
 20
-249.8338486521
 10
371.248044549
 20
-251.1435965825
 10
374.214957509
 20
-252.136383807
 10
377.3317366452
 20
-252.8077762968
 10
380.5844616653
 20
-253.1547754499
 10
383.9586051098
 20
-253.1758314841
 10
387.4390972351
 20
-252.8708503579
 10
391.0103933183
 20
-252.241194191
 10
394.6565430843
 20
-251.2896751808
 10
398.361261943
 20
-250.0205430421
 10
402.1080037206
 20
-248.4394660272
 10
405.880034559
 20
-246.5535056098
 10
409.6605076527
 20
-244.371084947
 10
413.432538491
 20
-241.9019512592
 10
417.1792802687
 20
-239.1571322968
 10
420.8839991274
 20
-236.1488870878
 10
424.5301488934
 20
-232.8906511854
 10
428.1014449766
 20
-229.3969766621
 10
431.5819371019
 20
-225.6834671165
 10
434.9560805464
 20
-221.7667079837
 10
438.2088055665
 20
-217.6641924607
 10
441.3255847027
 20
-213.3942433777
 10
444.2924976627
 20
-208.975931364
 10
447.0962934929
 20
-204.4289896736
 10
449.7244497606
 20
-199.7737260517
 10
452.165228482
 20
-195.0309320359
 10
454.4077285466
 20
-190.2217900956
 10
456.4419344049
 20
-185.367779026
 10
458.2587607997
 20
-180.490578019
 10
459.8500933432
 20
-175.6119698382
 10
461.2088247581
 20
-170.753743532
 10
462.32888662
 20
-165.9375971185
 10
463.2052764606
 20
-161.1850406767
 10
463.8340801103
 20
-156.5173002773
 10
464.2124891793
 20
-151.9552231822
 10
464.3388136008
 20
-147.519184735
  0
LWPOLYLINE
  5
C6
330
1F
100
AcDbEntity
  8
0
  6
Continuous
 62
     7
370
    25
100
AcDbPolyline
 90
       13
 70
   128
 43
0.0
 10
759.2023413556
 20
-317.7402760501
 10
759.0760169341
 20
-313.4500886754
 10
758.6976078651
 20
-309.3249133916
 10
758.0688042154
 20
-305.3831742328
 10
757.1924143747
 20
-301.642475963
 10
756.0723525129
 20
-298.1195254488
 10
754.713621098
 20
-294.8300570422
 10
753.1222885545
 20
-291.7887623079
 10
751.3054621597
 20
-289.0092244062
 10
749.2712563014
 20
-286.5038574284
 10
747.0287562368
 20
-284.2838509513
 10
744.5879775154
 20
-282.359120063
 10
742.6305481661
 20
-281.1126915325
  0
LWPOLYLINE
  5
C7
330
1F
100
AcDbEntity
  8
0
  6
Continuous
 62
     7
370
    25
100
AcDbPolyline
 90
       37
 70
   128
 43
0.0
 10
662.6370495552
 20
-419.6805095134
 10
663.3077764736
 20
-420.0549399671
 10
666.1115723038
 20
-421.3646878976
 10
669.0784852638
 20
-422.3574751221
 10
672.1952643999
 20
-423.0288676118
 10
675.4479894201
 20
-423.375866765
 10
678.8221328646
 20
-423.3969227991
 10
682.3026249899
 20
-423.0919416729
 10
685.8739210731
 20
-422.462285506
 10
689.520070839
 20
-421.5107664958
 10
693.2247896977
 20
-420.2416343572
 10
696.9715314754
 20
-418.6605573422
 10
700.7435623138
 20
-416.7745969248
 10
704.5240354075
 20
-414.592176262
 10
708.2960662458
 20
-412.1230425742
 10
712.0428080235
 20
-409.3782236119
 10
715.7475268822
 20
-406.3699784028
 10
719.3936766482
 20
-403.1117425004
 10
722.9649727314
 20
-399.6180679772
 10
726.4454648567
 20
-395.9045584316
 10
729.8196083012
 20
-391.9877992987
 10
733.0723333213
 20
-387.8852837757
 10
736.1891124575
 20
-383.6153346928
 10
739.1560254174
 20
-379.1970226791
 10
741.9598212477
 20
-374.6500809886
 10
744.5879775154
 20
-369.9948173668
 10
747.0287562368
 20
-365.252023351
 10
749.2712563014
 20
-360.4428814106
 10
751.3054621597
 20
-355.588870341
 10
753.1222885545
 20
-350.711669334
 10
754.713621098
 20
-345.8330611532
 10
756.0723525129
 20
-340.974834847
 10
757.1924143747
 20
-336.1586884335
 10
758.0688042154
 20
-331.4061319917
 10
758.6976078651
 20
-326.7383915924
 10
759.0760169341
 20
-322.1763144972
 10
759.2023413556
 20
-317.7402760501
  0
LWPOLYLINE
  5
C8
330
1F
100
AcDbEntity
  8
0
  6
Continuous
 62
     7
370
    25
100
AcDbPolyline
 90
       86
 70
   128
 43
0.0
 10
454.0150545954
 20
-153.4789639513
 10
453.8887681099
 20
-149.6080119682
 10
453.5105983863
 20
-145.904009055
 10
452.8826108566
 20
-142.3871851912
 10
452.0082353708
 20
-139.0767480494
 10
450.8922474647
 20
-135.9907780891
 10
449.5407422772
 20
-133.1461298081
 10
447.9611012609
 20
-130.558339689
 10
446.1619518674
 20
-128.241541344
 10
444.1531204267
 20
-126.2083883222
 10
441.9455784796
 20
-124.4699850004
 10
439.5513828546
 20
-123.0358259348
 10
436.983609818
 20
-121.9137440048
 10
434.2562836558
 20
-121.1098676328
 10
431.3843000775
 20
-120.6285873128
 10
428.3833448617
 20
-120.472531631
 10
425.2698081851
 20
-120.6425529094
 10
422.0606951053
 20
-121.1377225508
 10
418.7735326851
 20
-121.9553361103
 10
415.4262742658
 20
-123.0909280662
 10
412.0372014122
 20
-124.5382962089
 10
408.6248240648
 20
-126.2895355157
 10
405.2077794455
 20
-128.3350813246
 10
401.8047302671
 20
-130.6637615738
 10
398.434262804
 20
-133.2628578194
 10
395.1147853808
 20
-136.1181746988
 10
391.8644278321
 20
-139.2141174616
 10
388.7009424837
 20
-142.5337771417
 10
385.6416071955
 20
-146.0590229094
 10
382.703130996
 20
-149.7706010946
 10
379.9015628231
 20
-153.6482403443
 10
377.2522038709
 20
-157.6707623377
 10
374.7695240191
 20
-161.8161974545
 10
372.4670828041
 20
-166.0619047655
 10
370.3574553616
 20
-170.3846956899
 10
368.4521637449
 20
-174.7609606425
 10
366.7616139962
 20
-179.1667979818
 10
365.295039312
 20
-183.5781445519
 10
364.0604496147
 20
-187.9709071078
 10
363.064587805
 20
-192.3210939036
 10
362.3128929349
 20
-196.6049457275
 10
361.809470501
 20
-200.7990656664
 10
361.5570700221
 20
-204.8805468916
 10
361.5570700221
 20
-208.8270977679
 10
361.809470501
 20
-212.6171636031
 10
362.3128929349
 20
-216.2300443718
 10
363.064587805
 20
-219.6460077722
 10
364.0604496147
 20
-222.8463969967
 10
365.295039312
 20
-225.8137326291
 10
366.7616139962
 20
-228.5318081112
 10
368.4521637449
 20
-230.9857782573
 10
370.3574553616
 20
-233.1622403334
 10
372.4670828041
 20
-235.0493072583
 10
374.7695240191
 20
-236.6366725271
 10
377.2522038709
 20
-237.9156665008
 10
379.9015628232
 20
-238.8793037581
 10
382.703130996
 20
-239.5223212464
 10
385.6416071955
 20
-239.8412070271
 10
388.7009424837
 20
-239.8342194567
 10
391.8644278321
 20
-239.5013966988
 10
395.1147853808
 20
-238.844556516
 10
398.434262804
 20
-237.8672863416
 10
401.8047302671
 20
-236.5749236863
 10
405.2077794455
 20
-234.9745269869
 10
408.6248240648
 20
-233.0748370551
 10
412.0372014122
 20
-230.8862293386
 10
415.4262742658
 20
-228.4206572538
 10
418.7735326851
 20
-225.6915869003
 10
422.0606951053
 20
-222.7139235142
 10
425.2698081851
 20
-219.5039300603
 10
428.3833448617
 20
-216.0791384097
 10
431.3843000775
 20
-212.4582535867
 10
434.2562836558
 20
-208.6610516087
 10
436.983609818
 20
-204.708271476
 10
439.5513828546
 20
-200.6215019031
 10
441.9455784796
 20
-196.4230634082
 10
444.1531204267
 20
-192.1358864064
 10
446.1619518674
 20
-187.7833859719
 10
447.9611012609
 20
-183.3893339527
 10
449.5407422772
 20
-178.9777291373
 10
450.8922474647
 20
-174.5726661812
 10
452.0082353708
 20
-170.1982040108
 10
452.8826108566
 20
-165.8782344215
 10
453.5105983863
 20
-161.6363515893
 10
453.8887681099
 20
-157.4957232071
 10
454.0150545954
 20
-153.4789639513
  0
LWPOLYLINE
  5
C9
330
1F
100
AcDbEntity
  8
0
  6
Continuous
 62
     7
370
    25
100
AcDbPolyline
 90
       65
 70
   128
 43
0.0
 10
713.4525326128
 20
-203.9738056676
 10
713.3272318356
 20
-200.9561832399
 10
712.952536219
 20
-197.8229529679
 10
712.3320542867
 20
-194.6042895719
 10
711.4717616188
 20
-191.3311905397
 10
710.3799433041
 20
-188.0351776045
 10
709.0671141496
 20
-184.7479931725
 10
707.545917418
 20
-181.5012946267
 10
705.8310030651
 20
-178.326349449
 10
703.9388866538
 20
-175.2537340971
 10
701.8877902994
 20
-172.3130395364
 10
699.6974671811
 20
-169.5325862632
 10
697.3890113078
 20
-166.9391515623
 10
694.9846543715
 20
-164.5577116277
 10
692.5075516439
 20
-162.4112010278
 10
689.9815589784
 20
-160.520291833
 10
687.4310030651
 20
-158.9031945326
 10
684.8804471519
 20
-157.5754826576
 10
682.3544544863
 20
-156.5499427991
 10
679.8773517587
 20
-155.8364514666
 10
677.4729948224
 20
-155.4418799716
 10
675.1645389491
 20
-155.3700282534
 10
672.9742158308
 20
-155.6215882832
 10
670.9231194764
 20
-156.1941374005
 10
669.0310030651
 20
-157.0821616443
 10
667.3160887123
 20
-158.2771088556
 10
665.7948919806
 20
-159.7674710397
 10
664.4820628262
 20
-161.5388951938
 10
663.3902445114
 20
-163.5743215352
 10
662.5299518435
 20
-165.8541477954
 10
661.9094699112
 20
-168.3564180012
 10
661.5347742946
 20
-171.0570339228
 10
661.4094735175
 20
-173.9299871525
 10
661.5347742946
 20
-176.9476095801
 10
661.9094699112
 20
-180.0808398521
 10
662.5299518435
 20
-183.2995032482
 10
663.3902445114
 20
-186.5726022803
 10
664.4820628262
 20
-189.8686152156
 10
665.7948919806
 20
-193.1557996476
 10
667.3160887123
 20
-196.4024981933
 10
669.0310030651
 20
-199.577443371
 10
670.9231194764
 20
-202.6500587229
 10
672.9742158308
 20
-205.5907532836
 10
675.1645389491
 20
-208.3712065569
 10
677.4729948224
 20
-210.9646412577
 10
679.8773517587
 20
-213.3460811923
 10
682.3544544863
 20
-215.4925917922
 10
684.8804471519
 20
-217.383500987
 10
687.4310030651
 20
-219.0005982874
 10
689.9815589784
 20
-220.3283101624
 10
692.5075516439
 20
-221.3538500209
 10
694.9846543715
 20
-222.0673413535
 10
697.3890113078
 20
-222.4619128484
 10
699.6974671811
 20
-222.5337645667
 10
701.8877902994
 20
-222.2822045368
 10
703.9388866538
 20
-221.7096554195
 10
705.8310030651
 20
-220.8216311758
 10
707.545917418
 20
-219.6266839644
 10
709.0671141496
 20
-218.1363217804
 10
710.3799433041
 20
-216.3648976262
 10
711.4717616188
 20
-214.3294712849
 10
712.3320542867
 20
-212.0496450247
 10
712.952536219
 20
-209.5473748188
 10
713.3272318356
 20
-206.8467588972
 10
713.4525326128
 20
-203.9738056676
  0
LWPOLYLINE
  5
CA
330
1F
100
AcDbEntity
  8
0
  6
Continuous
 62
     7
370
    25
100
AcDbPolyline
 90
       72
 70
   128
 43
0.0
 10
719.2508082185
 20
-207.321078926
 10
719.1262916594
 20
-204.0017287402
 10
718.753716493
 20
-200.5645932111
 10
718.1359986251
 20
-197.0365725844
 10
717.2779725356
 20
-193.445278405
 10
716.1863534419
 20
-189.8188174192
 10
714.8696847436
 20
-186.1855716011
 10
713.3382711585
 20
-182.5739760253
 10
711.6040980741
 20
-179.0122963241
 10
709.6807377462
 20
-175.5284074701
 10
707.5832430771
 20
-172.1495756173
 10
705.3280298065
 20
-168.9022447061
 10
702.932748036
 20
-165.8118295039
 10
700.416144093
 20
-162.9025166996
 10
697.7979138156
 20
-160.1970756107
 10
695.0985484056
 20
-157.7166799817
 10
692.3391740572
 20
-155.4807422715
 10
689.5413866161
 20
-153.5067617244
 10
686.7270825623
 20
-151.8101874144
 10
683.9182876409
 20
-150.404297336
 10
681.1369844804
 20
-149.300094485
 10
678.4049405491
 20
-148.5062207461
 10
675.7435377949
 20
-148.0288892574
 10
673.1736053029
 20
-147.8718357852
 10
670.7152562793
 20
-148.0362894858
 10
668.3877306384
 20
-148.520963286
 10
666.209244424
 20
-149.3220639562
 10
664.1968472445
 20
-150.4333217974
 10
662.3662888364
 20
-151.8460397104
 10
660.7318958011
 20
-153.5491612621
 10
659.3064594801
 20
-155.5293572171
 10
658.1011358453
 20
-157.7711298572
 10
657.1253581884
 20
-160.2569342721
 10
656.3867632926
 20
-162.9673156717
 10
655.8911316644
 20
-165.8810616468
 10
655.6423422932
 20
-168.9753681846
 10
655.6423422932
 20
-172.2260181408
 10
655.8911316644
 20
-175.6075707724
 10
656.3867632926
 20
-179.0935608449
 10
657.1253581884
 20
-182.6567057597
 10
658.1011358453
 20
-186.2691190766
 10
659.3064594801
 20
-189.9025287636
 10
660.7318958011
 20
-193.5284984636
 10
662.3662888364
 20
-197.1186500472
 10
664.1968472445
 20
-200.6448857108
 10
666.209244424
 20
-204.0796078792
 10
668.3877306384
 20
-207.3959351944
 10
670.7152562793
 20
-210.5679128987
 10
673.1736053029
 20
-213.570715966
 10
675.7435377949
 20
-216.3808433908
 10
678.4049405491
 20
-218.9763021159
 10
681.1369844804
 20
-221.3367791578
 10
683.9182876409
 20
-223.4438005832
 10
686.7270825623
 20
-225.2808760925
 10
689.5413866161
 20
-226.8336280792
 10
692.3391740572
 20
-228.0899041536
 10
695.0985484056
 20
-229.0398722521
 10
697.7979138156
 20
-229.6760975864
 10
700.416144093
 20
-229.9936008306
 10
702.932748036
 20
-229.9898970913
 10
705.3280298065
 20
-229.6650153553
 10
707.5832430771
 20
-229.0214982626
 10
709.6807377462
 20
-228.0643822071
 10
711.6040980741
 20
-226.8011579195
 10
713.3382711585
 20
-225.2417118427
 10
714.8696847436
 20
-223.3982487566
 10
716.1863534419
 20
-221.2851962593
 10
717.2779725356
 20
-218.9190918516
 10
718.1359986251
 20
-216.3184535085
 10
718.753716493
 20
-213.5036347512
 10
719.1262916594
 20
-210.4966653528
 10
719.2508082185
 20
-207.321078926
  0
ENDSEC
  0
SECTION
  2
OBJECTS
  0
DICTIONARY
  5
C
330
0
100
AcDbDictionary
281
     1
  3
ACAD_GROUP
350
D
  3
ACAD_LAYOUT
350
1A
  3
ACAD_MLINESTYLE
350
17
  3
ACAD_PLOTSETTINGS
350
19
  3
ACAD_PLOTSTYLENAME
350
E
  3
ACAD_SCALELIST
350
47
  0
DICTIONARY
  5
D
102
{ACAD_REACTORS
330
C
102
}
330
C
100
AcDbDictionary
281
     1
  0
DICTIONARY
  5
1A
102
{ACAD_REACTORS
330
C
102
}
330
C
100
AcDbDictionary
281
     1
  3
Layout1
350
1E
  3
Layout2
350
26
  3
Model
350
22
  0
DICTIONARY
  5
17
102
{ACAD_REACTORS
330
C
102
}
330
C
100
AcDbDictionary
281
     1
  3
Standard
350
18
  0
DICTIONARY
  5
19
102
{ACAD_REACTORS
330
C
102
}
330
C
100
AcDbDictionary
281
     1
  0
ACDBDICTIONARYWDFLT
  5
E
102
{ACAD_REACTORS
330
C
102
}
330
C
100
AcDbDictionary
281
     1
  3
Normal
350
F
100
AcDbDictionaryWithDefault
340
F
  0
DICTIONARY
  5
47
102
{ACAD_REACTORS
330
C
102
}
330
C
100
AcDbDictionary
281
     1
  3
A0
350
48
  3
A1
350
49
  3
A2
350
4A
  3
A3
350
4B
  3
A4
350
4C
  3
A5
350
4D
  3
A6
350
4E
  3
A7
350
4F
  3
A8
350
50
  3
A9
350
51
  3
B0
350
52
  3
B1
350
53
  3
B2
350
54
  3
B3
350
55
  3
B4
350
56
  3
B5
350
57
  3
B6
350
58
  3
B7
350
59
  3
B8
350
5A
  3
B9
350
5B
  3
C0
350
5C
  3
C1
350
5D
  3
C2
350
5E
  3
C3
350
5F
  3
C4
350
60
  3
C5
350
61
  3
C6
350
62
  3
C7
350
63
  3
C8
350
64
  3
C9
350
65
  3
D0
350
66
  3
D1
350
67
  3
D2
350
68
  0
LAYOUT
  5
1E
102
{ACAD_REACTORS
330
1A
102
}
330
1A
100
AcDbPlotSettings
  1

  2
none_device
  4

  6

 40
0.0
 41
0.0
 42
0.0
 43
0.0
 44
0.0
 45
0.0
 46
0.0
 47
0.0
 48
0.0
 49
0.0
140
0.0
141
0.0
142
1.0
143
1.0
 70
   688
 72
     1
 73
     0
 74
     5
  7

 75
    16
147
1.0
148
0.0
149
0.0
100
AcDbLayout
  1
Layout1
 70
     1
 71
     1
 10
0.0
 20
0.0
 11
420.0
 21
297.0
 12
0.0
 22
0.0
 32
0.0
 14
1.0000000000E+20
 24
1.0000000000E+20
 34
1.0000000000E+20
 15
-1.0000000000E+20
 25
-1.0000000000E+20
 35
-1.0000000000E+20
146
0.0
 13
0.0
 23
0.0
 33
0.0
 16
1.0
 26
0.0
 36
0.0
 17
0.0
 27
1.0
 37
0.0
 76
     0
330
1B
  0
LAYOUT
  5
26
102
{ACAD_REACTORS
330
1A
102
}
330
1A
100
AcDbPlotSettings
  1

  2
none_device
  4

  6

 40
0.0
 41
0.0
 42
0.0
 43
0.0
 44
0.0
 45
0.0
 46
0.0
 47
0.0
 48
0.0
 49
0.0
140
0.0
141
0.0
142
1.0
143
1.0
 70
   688
 72
     1
 73
     0
 74
     5
  7

 75
    16
147
1.0
148
0.0
149
0.0
100
AcDbLayout
  1
Layout2
 70
     1
 71
     2
 10
0.0
 20
0.0
 11
0.0
 21
0.0
 12
0.0
 22
0.0
 32
0.0
 14
0.0
 24
0.0
 34
0.0
 15
0.0
 25
0.0
 35
0.0
146
0.0
 13
0.0
 23
0.0
 33
0.0
 16
1.0
 26
0.0
 36
0.0
 17
0.0
 27
1.0
 37
0.0
 76
     0
330
23
  0
LAYOUT
  5
22
102
{ACAD_REACTORS
330
1A
102
}
330
1A
100
AcDbPlotSettings
  1

  2
none_device
  4
Letter_(8.50_x_11.00_Inches)
  6

 40
6.35
 41
6.35
 42
6.35000508
 43
6.35000508
 44
215.9
 45
279.4
 46
0.0
 47
0.0
 48
0.0
 49
0.0
140
0.0
141
0.0
142
1.0
143
1.0
 70
  1712
 72
     1
 73
     0
 74
     0
  7

 75
     0
147
1.0
148
0.0
149
0.0
100
AcDbLayout
  1
Model
 70
     1
 71
     0
 10
0.0
 20
0.0
 11
279.4
 21
215.9
 12
0.0
 22
0.0
 32
0.0
 14
0.0
 24
0.0
 34
0.0
 15
279.4
 25
215.9
 35
0.0
146
0.0
 13
0.0
 23
0.0
 33
0.0
 16
1.0
 26
0.0
 36
0.0
 17
0.0
 27
1.0
 37
0.0
 76
     0
330
1F
331
29
  0
MLINESTYLE
  5
18
102
{ACAD_REACTORS
330
17
102
}
330
17
100
AcDbMlineStyle
  2
Standard
 70
     0
  3

 62
   256
 51
90.0
 52
90.0
 71
     2
 49
0.5
 62
   256
  6
BYLAYER
 49
-0.5
 62
   256
  6
BYLAYER
  0
ACDBPLACEHOLDER
  5
F
102
{ACAD_REACTORS
330
E
102
}
330
E
  0
SCALE
  5
48
102
{ACAD_REACTORS
330
47
102
}
330
47
100
AcDbScale
 70
     0
300
1:1
140
1.0
141
1.0
290
     1
  0
SCALE
  5
49
102
{ACAD_REACTORS
330
47
102
}
330
47
100
AcDbScale
 70
     0
300
1:2
140
1.0
141
2.0
290
     0
  0
SCALE
  5
4A
102
{ACAD_REACTORS
330
47
102
}
330
47
100
AcDbScale
 70
     0
300
1:4
140
1.0
141
4.0
290
     0
  0
SCALE
  5
4B
102
{ACAD_REACTORS
330
47
102
}
330
47
100
AcDbScale
 70
     0
300
1:5
140
1.0
141
5.0
290
     0
  0
SCALE
  5
4C
102
{ACAD_REACTORS
330
47
102
}
330
47
100
AcDbScale
 70
     0
300
1:8
140
1.0
141
8.0
290
     0
  0
SCALE
  5
4D
102
{ACAD_REACTORS
330
47
102
}
330
47
100
AcDbScale
 70
     0
300
1:10
140
1.0
141
10.0
290
     0
  0
SCALE
  5
4E
102
{ACAD_REACTORS
330
47
102
}
330
47
100
AcDbScale
 70
     0
300
1:16
140
1.0
141
16.0
290
     0
  0
SCALE
  5
4F
102
{ACAD_REACTORS
330
47
102
}
330
47
100
AcDbScale
 70
     0
300
1:20
140
1.0
141
20.0
290
     0
  0
SCALE
  5
50
102
{ACAD_REACTORS
330
47
102
}
330
47
100
AcDbScale
 70
     0
300
1:30
140
1.0
141
30.0
290
     0
  0
SCALE
  5
51
102
{ACAD_REACTORS
330
47
102
}
330
47
100
AcDbScale
 70
     0
300
1:40
140
1.0
141
40.0
290
     0
  0
SCALE
  5
52
102
{ACAD_REACTORS
330
47
102
}
330
47
100
AcDbScale
 70
     0
300
1:50
140
1.0
141
50.0
290
     0
  0
SCALE
  5
53
102
{ACAD_REACTORS
330
47
102
}
330
47
100
AcDbScale
 70
     0
300
1:100
140
1.0
141
100.0
290
     0
  0
SCALE
  5
54
102
{ACAD_REACTORS
330
47
102
}
330
47
100
AcDbScale
 70
     0
300
2:1
140
2.0
141
1.0
290
     0
  0
SCALE
  5
55
102
{ACAD_REACTORS
330
47
102
}
330
47
100
AcDbScale
 70
     0
300
4:1
140
4.0
141
1.0
290
     0
  0
SCALE
  5
56
102
{ACAD_REACTORS
330
47
102
}
330
47
100
AcDbScale
 70
     0
300
8:1
140
8.0
141
1.0
290
     0
  0
SCALE
  5
57
102
{ACAD_REACTORS
330
47
102
}
330
47
100
AcDbScale
 70
     0
300
10:1
140
10.0
141
1.0
290
     0
  0
SCALE
  5
58
102
{ACAD_REACTORS
330
47
102
}
330
47
100
AcDbScale
 70
     0
300
100:1
140
100.0
141
1.0
290
     0
  0
SCALE
  5
59
102
{ACAD_REACTORS
330
47
102
}
330
47
100
AcDbScale
 70
     0
300
1/128" = 1'-0"
140
0.0078125
141
12.0
290
     0
  0
SCALE
  5
5A
102
{ACAD_REACTORS
330
47
102
}
330
47
100
AcDbScale
 70
     0
300
1/64" = 1'-0"
140
0.015625
141
12.0
290
     0
  0
SCALE
  5
5B
102
{ACAD_REACTORS
330
47
102
}
330
47
100
AcDbScale
 70
     0
300
1/32" = 1'-0"
140
0.03125
141
12.0
290
     0
  0
SCALE
  5
5C
102
{ACAD_REACTORS
330
47
102
}
330
47
100
AcDbScale
 70
     0
300
1/16" = 1'-0"
140
0.0625
141
12.0
290
     0
  0
SCALE
  5
5D
102
{ACAD_REACTORS
330
47
102
}
330
47
100
AcDbScale
 70
     0
300
3/32" = 1'-0"
140
0.09375
141
12.0
290
     0
  0
SCALE
  5
5E
102
{ACAD_REACTORS
330
47
102
}
330
47
100
AcDbScale
 70
     0
300
1/8" = 1'-0"
140
0.125
141
12.0
290
     0
  0
SCALE
  5
5F
102
{ACAD_REACTORS
330
47
102
}
330
47
100
AcDbScale
 70
     0
300
3/16" = 1'-0"
140
0.1875
141
12.0
290
     0
  0
SCALE
  5
60
102
{ACAD_REACTORS
330
47
102
}
330
47
100
AcDbScale
 70
     0
300
1/4" = 1'-0"
140
0.25
141
12.0
290
     0
  0
SCALE
  5
61
102
{ACAD_REACTORS
330
47
102
}
330
47
100
AcDbScale
 70
     0
300
3/8" = 1'-0"
140
0.375
141
12.0
290
     0
  0
SCALE
  5
62
102
{ACAD_REACTORS
330
47
102
}
330
47
100
AcDbScale
 70
     0
300
1/2" = 1'-0"
140
0.5
141
12.0
290
     0
  0
SCALE
  5
63
102
{ACAD_REACTORS
330
47
102
}
330
47
100
AcDbScale
 70
     0
300
3/4" = 1'-0"
140
0.75
141
12.0
290
     0
  0
SCALE
  5
64
102
{ACAD_REACTORS
330
47
102
}
330
47
100
AcDbScale
 70
     0
300
1" = 1'-0"
140
1.0
141
12.0
290
     0
  0
SCALE
  5
65
102
{ACAD_REACTORS
330
47
102
}
330
47
100
AcDbScale
 70
     0
300
1-1/2" = 1'-0"
140
1.5
141
12.0
290
     0
  0
SCALE
  5
66
102
{ACAD_REACTORS
330
47
102
}
330
47
100
AcDbScale
 70
     0
300
3" = 1'-0"
140
3.0
141
12.0
290
     0
  0
SCALE
  5
67
102
{ACAD_REACTORS
330
47
102
}
330
47
100
AcDbScale
 70
     0
300
6" = 1'-0"
140
6.0
141
12.0
290
     0
  0
SCALE
  5
68
102
{ACAD_REACTORS
330
47
102
}
330
47
100
AcDbScale
 70
     0
300
1'-0" = 1'-0"
140
12.0
141
12.0
290
     0
  0
ENDSEC
  0
EOF
